ISO-10303-21;
HEADER;
FILE_DESCRIPTION (( 'STEP AP214' ),
    '1' );
FILE_NAME ('90000466 Drawing (160mm dia x 45 deg).STEP',
    '2025-03-06T12:52:12',
    ( '' ),
    ( '' ),
    'SwSTEP 2.0',
    'SolidWorks 2024',
    '' );
FILE_SCHEMA (( 'AUTOMOTIVE_DESIGN' ));
ENDSEC;

DATA;
#1 = ORIENTED_EDGE ( 'NONE', *, *, #228, .T. ) ;
#2 = EDGE_LOOP ( 'NONE', ( #96, #64 ) ) ;
#3 = DIRECTION ( 'NONE',  ( -0.000000000000000000, -1.000000000000000000, -0.000000000000000000 ) ) ;
#4 = LINE ( 'NONE', #281, #109 ) ;
#5 = FACE_OUTER_BOUND ( 'NONE', #164, .T. ) ;
#6 = ADVANCED_BREP_SHAPE_REPRESENTATION ( '90000466 Drawing (160mm dia x 45 deg)', ( #91, #148 ), #237 ) ;
#7 = CARTESIAN_POINT ( 'NONE',  ( -129.8120094854285753, 107.8488635569124767, 0.000000000000000000 ) ) ;
#8 = CARTESIAN_POINT ( 'NONE',  ( 96.00000000000000000, 62.13186906670640752, 1.175660927181459316E-14 ) ) ;
#9 = DIRECTION ( 'NONE',  ( 0.000000000000000000, -0.000000000000000000, 1.000000000000000000 ) ) ;
#10 = DIRECTION ( 'NONE',  ( 0.000000000000000000, 0.000000000000000000, 1.000000000000000000 ) ) ;
#11 = DIRECTION ( 'NONE',  ( 0.000000000000000000, 0.000000000000000000, 1.000000000000000000 ) ) ;
#12 = VERTEX_POINT ( 'NONE', #168 ) ;
#13 = CARTESIAN_POINT ( 'NONE',  ( 72.22137795156794482, 174.1177490060913158, 0.000000000000000000 ) ) ;
#14 = AXIS2_PLACEMENT_3D ( 'NONE', #72, #181, #222 ) ;
#15 = ORIENTED_EDGE ( 'NONE', *, *, #62, .F. ) ;
#16 =( BOUNDED_CURVE ( )  B_SPLINE_CURVE ( 3, ( #87, #57, #249, #155 ),
 .UNSPECIFIED., .F., .F. ) 
 B_SPLINE_CURVE_WITH_KNOTS ( ( 4, 4 ),
 ( 0.000000000000000000, 3.141592653589793116 ),
 .UNSPECIFIED. ) 
 CURVE ( )  GEOMETRIC_REPRESENTATION_ITEM ( )  RATIONAL_B_SPLINE_CURVE ( ( 1.000000000000000000, 0.3333333333333333703, 0.3333333333333333703, 1.000000000000000000 ) ) 
 REPRESENTATION_ITEM ( '' )  );
#17 = DIRECTION ( 'NONE',  ( -4.838622422571977920E-31, 1.000000000000000000, 0.000000000000000000 ) ) ;
#18 = EDGE_CURVE ( 'NONE', #56, #73, #4, .T. ) ;
#19 = LINE ( 'NONE', #188, #120 ) ;
#20 = CARTESIAN_POINT ( 'NONE',  ( -96.00000000000001421, -4.645077525669099364E-29, 0.000000000000000000 ) ) ;
#21 = EDGE_CURVE ( 'NONE', #238, #56, #147, .T. ) ;
#22 = FACE_OUTER_BOUND ( 'NONE', #167, .T. ) ;
#23 = ORIENTED_EDGE ( 'NONE', *, *, #21, .F. ) ;
#24 = PRODUCT ( '90000466 Drawing (160mm dia x 45 deg)', '90000466 Drawing (160mm dia x 45 deg)', '', ( #136 ) ) ;
#25 = ORIENTED_EDGE ( 'NONE', *, *, #95, .T. ) ;
#26 = CARTESIAN_POINT ( 'NONE',  ( 15.65283545664424025, 230.6862915010152051, 0.000000000000000000 ) ) ;
#27 = VECTOR ( 'NONE', #241, 1000.000000000000000 ) ;
#28 = VECTOR ( 'NONE', #225, 1000.000000000000000 ) ;
#29 = EDGE_LOOP ( 'NONE', ( #193, #259, #268, #137 ) ) ;
#30 = FILL_AREA_STYLE ('',( #50 ) ) ;
#31 = LINE ( 'NONE', #7, #88 ) ;
#32 = CARTESIAN_POINT ( 'NONE',  ( 0.000000000000000000, 0.000000000000000000, 0.000000000000000000 ) ) ;
#33 = EDGE_CURVE ( 'NONE', #212, #255, #145, .T. ) ;
#34 = DIRECTION ( 'NONE',  ( -0.7071067811865460184, 0.7071067811865490160, 0.000000000000000000 ) ) ;
#35 = AXIS2_PLACEMENT_3D ( 'NONE', #284, #101, #242 ) ;
#36 = CARTESIAN_POINT ( 'NONE',  ( 0.000000000000000000, 0.000000000000000000, 0.000000000000000000 ) ) ;
#37 = DIRECTION ( 'NONE',  ( -4.838622422571977920E-31, 1.000000000000000000, 0.000000000000000000 ) ) ;
#38 = CARTESIAN_POINT ( 'NONE',  ( -80.00000000000001421, 135.0334560443713485, 0.000000000000000000 ) ) ;
#39 =( NAMED_UNIT ( * ) PLANE_ANGLE_UNIT ( ) SI_UNIT ( $, .RADIAN. ) );
#40 = EDGE_CURVE ( 'NONE', #265, #12, #74, .T. ) ;
#41 = CARTESIAN_POINT ( 'NONE',  ( 0.000000000000000000, 0.000000000000000000, 0.000000000000000000 ) ) ;
#42 = DIRECTION ( 'NONE',  ( 0.7071067811865489050, 0.7071067811865461294, 0.000000000000000000 ) ) ;
#43 = ORIENTED_EDGE ( 'NONE', *, *, #95, .F. ) ;
#44 = DIRECTION ( 'NONE',  ( 0.000000000000000000, 0.000000000000000000, 1.000000000000000000 ) ) ;
#45 = VERTEX_POINT ( 'NONE', #26 ) ;
#46 = CARTESIAN_POINT ( 'NONE',  ( 0.000000000000000000, 0.000000000000000000, 0.000000000000000000 ) ) ;
#47 = ORIENTED_EDGE ( 'NONE', *, *, #157, .F. ) ;
#48 = CARTESIAN_POINT ( 'NONE',  ( 5.952492502388301077, -27.91563843090494856, 1.175660927181459316E-14 ) ) ;
#49 = CARTESIAN_POINT ( 'NONE',  ( 72.22137795156794482, 174.1177490060913158, 0.000000000000000000 ) ) ;
#50 = FILL_AREA_STYLE_COLOUR ( '', #70 ) ;
#51 = ADVANCED_FACE ( 'NONE', ( #123 ), #103, .F. ) ;
#52 = CARTESIAN_POINT ( 'NONE',  ( -61.92975849152013268, 39.96661256300375697, 0.000000000000000000 ) ) ;
#53 = DIRECTION ( 'NONE',  ( 0.7071067811865489050, 0.7071067811865462405, -0.000000000000000000 ) ) ;
#54 = EDGE_LOOP ( 'NONE', ( #130, #215, #118, #108 ) ) ;
#55 = DIRECTION ( 'NONE',  ( 0.000000000000000000, 1.000000000000000000, 0.000000000000000000 ) ) ;
#56 = VERTEX_POINT ( 'NONE', #288 ) ;
#57 = CARTESIAN_POINT ( 'NONE',  ( -80.00000000000000000, 135.0334560443713485, 159.9999999999999716 ) ) ;
#58 = CARTESIAN_POINT ( 'NONE',  ( -61.92975849152013268, 39.96661256300375697, 0.000000000000000000 ) ) ;
#59 = EDGE_LOOP ( 'NONE', ( #23, #43 ) ) ;
#60 = CYLINDRICAL_SURFACE ( 'NONE', #258, 80.00000000000000000 ) ;
#61 = ORIENTED_EDGE ( 'NONE', *, *, #128, .F. ) ;
#62 = EDGE_CURVE ( 'NONE', #73, #205, #179, .T. ) ;
#63 = FACE_OUTER_BOUND ( 'NONE', #29, .T. ) ;
#64 = ORIENTED_EDGE ( 'NONE', *, *, #245, .T. ) ;
#65 = MECHANICAL_DESIGN_GEOMETRIC_PRESENTATION_REPRESENTATION (  '', ( #270 ), #276 ) ;
#66 = APPLICATION_PROTOCOL_DEFINITION ( 'draft international standard', 'automotive_design', 1998, #171 ) ;
#67 = CARTESIAN_POINT ( 'NONE',  ( 0.000000000000000000, 0.000000000000000000, 0.000000000000000000 ) ) ;
#68 = ORIENTED_EDGE ( 'NONE', *, *, #86, .F. ) ;
#69 = ORIENTED_EDGE ( 'NONE', *, *, #239, .T. ) ;
#70 = COLOUR_RGB ( '',0.7921568627450980005, 0.8196078431372548767, 0.9333333333333333481 ) ;
#71 = EDGE_CURVE ( 'NONE', #294, #248, #31, .T. ) ;
#72 = CARTESIAN_POINT ( 'NONE',  ( 0.000000000000000000, 0.000000000000000000, 0.000000000000000000 ) ) ;
#73 = VERTEX_POINT ( 'NONE', #209 ) ;
#74 = CIRCLE ( 'NONE', #158, 96.00000000000001421 ) ;
#75 = AXIS2_PLACEMENT_3D ( 'NONE', #13, #272, #11 ) ;
#76 = CARTESIAN_POINT ( 'NONE',  ( -96.00000000000001421, 141.6608730423408815, 192.0000000000000284 ) ) ;
#77 = PRESENTATION_STYLE_ASSIGNMENT (( #104 ) ) ;
#78 = ADVANCED_FACE ( 'NONE', ( #22 ), #295, .T. ) ;
#79 = FACE_OUTER_BOUND ( 'NONE', #282, .T. ) ;
#80 = CIRCLE ( 'NONE', #190, 80.00000000000000000 ) ;
#81 = CARTESIAN_POINT ( 'NONE',  ( 96.00000000000000000, 62.13186906670640752, 1.175660927181459316E-14 ) ) ;
#82 = ORIENTED_EDGE ( 'NONE', *, *, #178, .T. ) ;
#83 = DIRECTION ( 'NONE',  ( 0.000000000000000000, 0.000000000000000000, 1.000000000000000000 ) ) ;
#84 = ORIENTED_EDGE ( 'NONE', *, *, #33, .T. ) ;
#85 = CARTESIAN_POINT ( 'NONE',  ( 96.00000000000001421, 4.645077525669099364E-29, 1.175660927181459316E-14 ) ) ;
#86 = EDGE_CURVE ( 'NONE', #12, #265, #169, .T. ) ;
#87 = CARTESIAN_POINT ( 'NONE',  ( -80.00000000000001421, 135.0334560443713485, 0.000000000000000000 ) ) ;
#88 = VECTOR ( 'NONE', #116, 1000.000000000000000 ) ;
#89 = CARTESIAN_POINT ( 'NONE',  ( 140.1036289454763732, 106.2354980121826031, 1.175660927181459316E-14 ) ) ;
#90 = CARTESIAN_POINT ( 'NONE',  ( 0.000000000000000000, 0.000000000000000000, 0.000000000000000000 ) ) ;
#91 = MANIFOLD_SOLID_BREP ( 'Sweep1', #126 ) ;
#92 = ORIENTED_EDGE ( 'NONE', *, *, #18, .T. ) ;
#93 = ORIENTED_EDGE ( 'NONE', *, *, #21, .T. ) ;
#94 = APPLICATION_CONTEXT ( 'automotive_design' ) ;
#95 = EDGE_CURVE ( 'NONE', #56, #238, #194, .T. ) ;
#96 = ORIENTED_EDGE ( 'NONE', *, *, #97, .T. ) ;
#97 = EDGE_CURVE ( 'NONE', #45, #205, #80, .T. ) ;
#98 = UNCERTAINTY_MEASURE_WITH_UNIT (LENGTH_MEASURE( 1.000000000000000082E-05 ), #102, 'distance_accuracy_value', 'NONE');
#99 = DIRECTION ( 'NONE',  ( -1.000000000000000000, -4.838622422571977920E-31, 0.000000000000000000 ) ) ;
#100 = ORIENTED_EDGE ( 'NONE', *, *, #297, .F. ) ;
#101 = DIRECTION ( 'NONE',  ( 0.000000000000000000, 1.000000000000000000, 0.000000000000000000 ) ) ;
#102 =( LENGTH_UNIT ( ) NAMED_UNIT ( * ) SI_UNIT ( .MILLI., .METRE. ) );
#103 = CYLINDRICAL_SURFACE ( 'NONE', #218, 80.00000000000000000 ) ;
#104 = SURFACE_STYLE_USAGE ( .BOTH. , #290 ) ;
#105 = ORIENTED_EDGE ( 'NONE', *, *, #18, .F. ) ;
#106 = FACE_OUTER_BOUND ( 'NONE', #283, .T. ) ;
#107 =( LENGTH_UNIT ( ) NAMED_UNIT ( * ) SI_UNIT ( .MILLI., .METRE. ) );
#108 = ORIENTED_EDGE ( 'NONE', *, *, #239, .F. ) ;
#109 = VECTOR ( 'NONE', #264, 1000.000000000000000 ) ;
#110 = AXIS2_PLACEMENT_3D ( 'NONE', #299, #296, #83 ) ;
#111 = FACE_OUTER_BOUND ( 'NONE', #224, .T. ) ;
#112 = ADVANCED_FACE ( 'NONE', ( #174, #79 ), #266, .F. ) ;
#113 = CARTESIAN_POINT ( 'NONE',  ( -80.00000000000000000, -3.870897938057582616E-29, 0.000000000000000000 ) ) ;
#114 = DIRECTION ( 'NONE',  ( -1.000000000000000000, -4.838622422571977920E-31, 0.000000000000000000 ) ) ;
#115 = CARTESIAN_POINT ( 'NONE',  ( 4.339126957659505734, 242.0000000000000284, 0.000000000000000000 ) ) ;
#116 = DIRECTION ( 'NONE',  ( 0.7071067811865489050, 0.7071067811865462405, 0.000000000000000000 ) ) ;
#117 = ORIENTED_EDGE ( 'NONE', *, *, #192, .T. ) ;
#118 = ORIENTED_EDGE ( 'NONE', *, *, #97, .F. ) ;
#119 = EDGE_LOOP ( 'NONE', ( #93, #92, #82, #275 ) ) ;
#120 = VECTOR ( 'NONE', #278, 1000.000000000000000 ) ;
#121 = DIRECTION ( 'NONE',  ( -4.838622422571977920E-31, 1.000000000000000000, 0.000000000000000000 ) ) ;
#122 =( NAMED_UNIT ( * ) PLANE_ANGLE_UNIT ( ) SI_UNIT ( $, .RADIAN. ) );
#123 = FACE_OUTER_BOUND ( 'NONE', #233, .T. ) ;
#124 = DIRECTION ( 'NONE',  ( -4.838622422571977920E-31, 1.000000000000000000, 0.000000000000000000 ) ) ;
#125 = FACE_OUTER_BOUND ( 'NONE', #54, .T. ) ;
#126 = CLOSED_SHELL ( 'NONE', ( #141, #184, #251, #177, #51, #273, #112, #134, #78, #289 ) ) ;
#127 = SURFACE_STYLE_FILL_AREA ( #30 ) ;
#128 = EDGE_CURVE ( 'NONE', #294, #212, #246, .T. ) ;
#129 = CARTESIAN_POINT ( 'NONE',  ( 72.22137795156794482, 174.1177490060913158, 0.000000000000000000 ) ) ;
#130 = ORIENTED_EDGE ( 'NONE', *, *, #178, .F. ) ;
#131 = LINE ( 'NONE', #85, #28 ) ;
#132 = AXIS2_PLACEMENT_3D ( 'NONE', #286, #53, #153 ) ;
#133 = DIRECTION ( 'NONE',  ( -4.838622422571977920E-31, 1.000000000000000000, 0.000000000000000000 ) ) ;
#134 = ADVANCED_FACE ( 'NONE', ( #196, #106 ), #201, .T. ) ;
#135 = DIRECTION ( 'NONE',  ( -0.7071067811865461294, 0.7071067811865490160, 0.000000000000000000 ) ) ;
#136 = PRODUCT_CONTEXT ( 'NONE', #171, 'mechanical' ) ;
#137 = ORIENTED_EDGE ( 'NONE', *, *, #228, .F. ) ;
#138 =( NAMED_UNIT ( * ) SI_UNIT ( $, .STERADIAN. ) SOLID_ANGLE_UNIT ( ) );
#139 = ORIENTED_EDGE ( 'NONE', *, *, #236, .F. ) ;
#140 = DIRECTION ( 'NONE',  ( 0.000000000000000000, 0.000000000000000000, 1.000000000000000000 ) ) ;
#141 = ADVANCED_FACE ( 'NONE', ( #202 ), #150, .F. ) ;
#142 = ORIENTED_EDGE ( 'NONE', *, *, #71, .T. ) ;
#143 = PRESENTATION_LAYER_ASSIGNMENT (  '', '', ( #270 ) ) ;
#144 = CIRCLE ( 'NONE', #75, 96.00000000000001421 ) ;
#145 = LINE ( 'NONE', #48, #232 ) ;
#146 = ORIENTED_EDGE ( 'NONE', *, *, #187, .F. ) ;
#147 = CIRCLE ( 'NONE', #207, 80.00000000000000000 ) ;
#148 = AXIS2_PLACEMENT_3D ( 'NONE', #90, #44, #210 ) ;
#149 = CARTESIAN_POINT ( 'NONE',  ( 4.948625305637152749, -6.292088629686602985, 9.797174393178826052E-15 ) ) ;
#150 = CYLINDRICAL_SURFACE ( 'NONE', #292, 80.00000000000000000 ) ;
#151 = CARTESIAN_POINT ( 'NONE',  ( 0.000000000000000000, 0.000000000000000000, 0.000000000000000000 ) ) ;
#152 = DIRECTION ( 'NONE',  ( 0.7071067811865489050, 0.7071067811865461294, 0.000000000000000000 ) ) ;
#153 = DIRECTION ( 'NONE',  ( 0.000000000000000000, 0.000000000000000000, 1.000000000000000000 ) ) ;
#154 = DIRECTION ( 'NONE',  ( -0.7071067811865461294, 0.7071067811865490160, 0.000000000000000000 ) ) ;
#155 = CARTESIAN_POINT ( 'NONE',  ( 80.00000000000000000, 68.75928606467593340, 9.797174393178826052E-15 ) ) ;
#156 = ORIENTED_EDGE ( 'NONE', *, *, #245, .F. ) ;
#157 = EDGE_CURVE ( 'NONE', #212, #294, #260, .T. ) ;
#158 = AXIS2_PLACEMENT_3D ( 'NONE', #46, #235, #140 ) ;
#159 = VECTOR ( 'NONE', #37, 1000.000000000000000 ) ;
#160 = DIRECTION ( 'NONE',  ( -0.7071067811865460184, 0.7071067811865490160, 0.000000000000000000 ) ) ;
#161 = EDGE_LOOP ( 'NONE', ( #15, #191, #69, #156 ) ) ;
#162 = CARTESIAN_POINT ( 'NONE',  ( -51.61991718928653938, 50.27645386523730764, 0.000000000000000000 ) ) ;
#163 = ORIENTED_EDGE ( 'NONE', *, *, #86, .T. ) ;
#164 = EDGE_LOOP ( 'NONE', ( #47, #84, #100, #175 ) ) ;
#165 = SHAPE_DEFINITION_REPRESENTATION ( #231, #6 ) ;
#166 = DIRECTION ( 'NONE',  ( 0.000000000000000000, 0.000000000000000000, 1.000000000000000000 ) ) ;
#167 = EDGE_LOOP ( 'NONE', ( #139, #163, #1, #262 ) ) ;
#168 = CARTESIAN_POINT ( 'NONE',  ( 96.00000000000001421, 0.000000000000000000, 1.175660927181459316E-14 ) ) ;
#169 = CIRCLE ( 'NONE', #35, 96.00000000000001421 ) ;
#170 = PRODUCT_DEFINITION_CONTEXT ( 'detailed design', #94, 'design' ) ;
#171 = APPLICATION_CONTEXT ( 'automotive_design' ) ;
#172 = DIRECTION ( 'NONE',  ( -1.000000000000000000, -4.838622422571977920E-31, 0.000000000000000000 ) ) ;
#173 = PRODUCT_RELATED_PRODUCT_CATEGORY ( 'part', '', ( #24 ) ) ;
#174 = FACE_BOUND ( 'NONE', #59, .T. ) ;
#175 = ORIENTED_EDGE ( 'NONE', *, *, #71, .F. ) ;
#176 = CARTESIAN_POINT ( 'NONE',  ( -96.00000000000002842, 141.6608730423408815, 0.000000000000000000 ) ) ;
#177 = ADVANCED_FACE ( 'NONE', ( #5 ), #195, .T. ) ;
#178 = EDGE_CURVE ( 'NONE', #73, #234, #285, .T. ) ;
#179 = LINE ( 'NONE', #149, #27 ) ;
#180 = CARTESIAN_POINT ( 'NONE',  ( -96.00000000000001421, 141.6608730423408815, -192.0000000000000284 ) ) ;
#181 = DIRECTION ( 'NONE',  ( -0.000000000000000000, -1.000000000000000000, -0.000000000000000000 ) ) ;
#182 = DIRECTION ( 'NONE',  ( -0.7071067811865489050, -0.7071067811865461294, -0.000000000000000000 ) ) ;
#183 = DIRECTION ( 'NONE',  ( 0.7071067811865489050, 0.7071067811865461294, 0.000000000000000000 ) ) ;
#184 = ADVANCED_FACE ( 'NONE', ( #125 ), #252, .F. ) ;
#185 = CARTESIAN_POINT ( 'NONE',  ( -96.00000000000001421, 0.000000000000000000, 0.000000000000000000 ) ) ;
#186 = CARTESIAN_POINT ( 'NONE',  ( 80.00000000000001421, 68.75928606467594761, -159.9999999999999716 ) ) ;
#187 = EDGE_CURVE ( 'NONE', #255, #248, #213, .T. ) ;
#188 = CARTESIAN_POINT ( 'NONE',  ( -108.1884596842102297, 106.8449963601612325, 0.000000000000000000 ) ) ;
#189 = APPLICATION_PROTOCOL_DEFINITION ( 'draft international standard', 'automotive_design', 1998, #94 ) ;
#190 = AXIS2_PLACEMENT_3D ( 'NONE', #49, #269, #10 ) ;
#191 = ORIENTED_EDGE ( 'NONE', *, *, #220, .F. ) ;
#192 = EDGE_CURVE ( 'NONE', #238, #234, #230, .T. ) ;
#193 = ORIENTED_EDGE ( 'NONE', *, *, #40, .T. ) ;
#194 = CIRCLE ( 'NONE', #14, 80.00000000000000000 ) ;
#195 = CYLINDRICAL_SURFACE ( 'NONE', #257, 96.00000000000001421 ) ;
#196 = FACE_BOUND ( 'NONE', #2, .T. ) ;
#197 = CARTESIAN_POINT ( 'NONE',  ( 96.00000000000005684, 62.13186906670640752, 192.0000000000000284 ) ) ;
#198 = AXIS2_PLACEMENT_3D ( 'NONE', #221, #121, #172 ) ;
#199 = AXIS2_PLACEMENT_3D ( 'NONE', #129, #182, #229 ) ;
#200 = DIRECTION ( 'NONE',  ( -1.000000000000000000, -4.838622422571977920E-31, 0.000000000000000000 ) ) ;
#201 = PLANE ( 'NONE',  #132 ) ;
#202 = FACE_OUTER_BOUND ( 'NONE', #119, .T. ) ;
#203 = CARTESIAN_POINT ( 'NONE',  ( 128.7899204464916352, 117.5492065111673696, 9.797174393178826052E-15 ) ) ;
#204 = AXIS2_PLACEMENT_3D ( 'NONE', #162, #183, #154 ) ;
#205 = VERTEX_POINT ( 'NONE', #203 ) ;
#206 = CARTESIAN_POINT ( 'NONE',  ( -80.00000000000000000, 135.0334560443713485, -159.9999999999999716 ) ) ;
#207 = AXIS2_PLACEMENT_3D ( 'NONE', #67, #3, #166 ) ;
#208 = CYLINDRICAL_SURFACE ( 'NONE', #277, 96.00000000000001421 ) ;
#209 = CARTESIAN_POINT ( 'NONE',  ( 80.00000000000000000, 68.75928606467593340, 9.797174393178826052E-15 ) ) ;
#210 = DIRECTION ( 'NONE',  ( 1.000000000000000000, 0.000000000000000000, 0.000000000000000000 ) ) ;
#211 = ORIENTED_EDGE ( 'NONE', *, *, #220, .T. ) ;
#212 = VERTEX_POINT ( 'NONE', #81 ) ;
#213 = CIRCLE ( 'NONE', #110, 96.00000000000001421 ) ;
#214 = AXIS2_PLACEMENT_3D ( 'NONE', #41, #133, #114 ) ;
#215 = ORIENTED_EDGE ( 'NONE', *, *, #62, .T. ) ;
#216 = AXIS2_PLACEMENT_3D ( 'NONE', #36, #55, #9 ) ;
#217 = CARTESIAN_POINT ( 'NONE',  ( 96.00000000000000000, 62.13186906670640752, 1.175660927181459316E-14 ) ) ;
#218 = AXIS2_PLACEMENT_3D ( 'NONE', #151, #243, #200 ) ;
#219 = ORIENTED_EDGE ( 'NONE', *, *, #40, .F. ) ;
#220 = EDGE_CURVE ( 'NONE', #234, #73, #16, .T. ) ;
#221 = CARTESIAN_POINT ( 'NONE',  ( 0.000000000000000000, 0.000000000000000000, 0.000000000000000000 ) ) ;
#222 = DIRECTION ( 'NONE',  ( 0.000000000000000000, 0.000000000000000000, 1.000000000000000000 ) ) ;
#223 = DIRECTION ( 'NONE',  ( 0.7071067811865489050, 0.7071067811865461294, 0.000000000000000000 ) ) ;
#224 = EDGE_LOOP ( 'NONE', ( #280, #61, #142, #146 ) ) ;
#225 = DIRECTION ( 'NONE',  ( -4.838622422571977920E-31, 1.000000000000000000, 0.000000000000000000 ) ) ;
#226 = ORIENTED_EDGE ( 'NONE', *, *, #187, .T. ) ;
#227 = LINE ( 'NONE', #20, #159 ) ;
#228 = EDGE_CURVE ( 'NONE', #265, #294, #227, .T. ) ;
#229 = DIRECTION ( 'NONE',  ( 0.000000000000000000, 0.000000000000000000, 1.000000000000000000 ) ) ;
#230 = LINE ( 'NONE', #113, #293 ) ;
#231 = PRODUCT_DEFINITION_SHAPE ( 'NONE', 'NONE',  #263 ) ;
#232 = VECTOR ( 'NONE', #261, 1000.000000000000000 ) ;
#233 = EDGE_LOOP ( 'NONE', ( #105, #25, #117, #211 ) ) ;
#234 = VERTEX_POINT ( 'NONE', #38 ) ;
#235 = DIRECTION ( 'NONE',  ( 0.000000000000000000, 1.000000000000000000, 0.000000000000000000 ) ) ;
#236 = EDGE_CURVE ( 'NONE', #12, #212, #131, .T. ) ;
#237 =( GEOMETRIC_REPRESENTATION_CONTEXT ( 3 ) GLOBAL_UNCERTAINTY_ASSIGNED_CONTEXT ( ( #256 ) ) GLOBAL_UNIT_ASSIGNED_CONTEXT ( ( #107, #39, #138 ) ) REPRESENTATION_CONTEXT ( 'NONE', 'WORKASPACE' ) );
#238 = VERTEX_POINT ( 'NONE', #298 ) ;
#239 = EDGE_CURVE ( 'NONE', #234, #45, #19, .T. ) ;
#240 = CARTESIAN_POINT ( 'NONE',  ( 95.99999999999998579, 62.13186906670641463, -192.0000000000000284 ) ) ;
#241 = DIRECTION ( 'NONE',  ( 0.7071067811865489050, 0.7071067811865462405, 0.000000000000000000 ) ) ;
#242 = DIRECTION ( 'NONE',  ( 0.000000000000000000, 0.000000000000000000, 1.000000000000000000 ) ) ;
#243 = DIRECTION ( 'NONE',  ( -4.838622422571977920E-31, 1.000000000000000000, 0.000000000000000000 ) ) ;
#244 =( NAMED_UNIT ( * ) SI_UNIT ( $, .STERADIAN. ) SOLID_ANGLE_UNIT ( ) );
#245 = EDGE_CURVE ( 'NONE', #205, #45, #287, .T. ) ;
#246 =( BOUNDED_CURVE ( )  B_SPLINE_CURVE ( 3, ( #267, #180, #240, #8 ),
 .UNSPECIFIED., .F., .F. ) 
 B_SPLINE_CURVE_WITH_KNOTS ( ( 4, 4 ),
 ( 0.000000000000000000, 3.141592653589793116 ),
 .UNSPECIFIED. ) 
 CURVE ( )  GEOMETRIC_REPRESENTATION_ITEM ( )  RATIONAL_B_SPLINE_CURVE ( ( 1.000000000000000000, 0.3333333333333333703, 0.3333333333333333703, 1.000000000000000000 ) ) 
 REPRESENTATION_ITEM ( '' )  );
#247 = CYLINDRICAL_SURFACE ( 'NONE', #214, 96.00000000000001421 ) ;
#248 = VERTEX_POINT ( 'NONE', #115 ) ;
#249 = CARTESIAN_POINT ( 'NONE',  ( 79.99999999999998579, 68.75928606467597604, 159.9999999999999716 ) ) ;
#250 = PRODUCT_DEFINITION_FORMATION_WITH_SPECIFIED_SOURCE ( 'ANY', '', #24, .NOT_KNOWN. ) ;
#251 = ADVANCED_FACE ( 'NONE', ( #63 ), #247, .T. ) ;
#252 = CYLINDRICAL_SURFACE ( 'NONE', #204, 80.00000000000000000 ) ;
#253 = ORIENTED_EDGE ( 'NONE', *, *, #297, .T. ) ;
#254 = CARTESIAN_POINT ( 'NONE',  ( -51.61991718928653938, 50.27645386523730764, 0.000000000000000000 ) ) ;
#255 = VERTEX_POINT ( 'NONE', #89 ) ;
#256 = UNCERTAINTY_MEASURE_WITH_UNIT (LENGTH_MEASURE( 1.000000000000000082E-05 ), #107, 'distance_accuracy_value', 'NONE');
#257 = AXIS2_PLACEMENT_3D ( 'NONE', #52, #152, #34 ) ;
#258 = AXIS2_PLACEMENT_3D ( 'NONE', #254, #42, #135 ) ;
#259 = ORIENTED_EDGE ( 'NONE', *, *, #236, .T. ) ;
#260 =( BOUNDED_CURVE ( )  B_SPLINE_CURVE ( 3, ( #217, #197, #76, #176 ),
 .UNSPECIFIED., .F., .F. ) 
 B_SPLINE_CURVE_WITH_KNOTS ( ( 4, 4 ),
 ( 3.141592653589793116, 6.283185307179586232 ),
 .UNSPECIFIED. ) 
 CURVE ( )  GEOMETRIC_REPRESENTATION_ITEM ( )  RATIONAL_B_SPLINE_CURVE ( ( 1.000000000000000000, 0.3333333333333333703, 0.3333333333333333703, 1.000000000000000000 ) ) 
 REPRESENTATION_ITEM ( '' )  );
#261 = DIRECTION ( 'NONE',  ( 0.7071067811865489050, 0.7071067811865462405, 0.000000000000000000 ) ) ;
#262 = ORIENTED_EDGE ( 'NONE', *, *, #128, .T. ) ;
#263 = PRODUCT_DEFINITION ( 'UNKNOWN', '', #250, #170 ) ;
#264 = DIRECTION ( 'NONE',  ( -4.838622422571977920E-31, 1.000000000000000000, 0.000000000000000000 ) ) ;
#265 = VERTEX_POINT ( 'NONE', #185 ) ;
#266 = PLANE ( 'NONE',  #216 ) ;
#267 = CARTESIAN_POINT ( 'NONE',  ( -96.00000000000002842, 141.6608730423408815, 0.000000000000000000 ) ) ;
#268 = ORIENTED_EDGE ( 'NONE', *, *, #157, .T. ) ;
#269 = DIRECTION ( 'NONE',  ( -0.7071067811865489050, -0.7071067811865461294, -0.000000000000000000 ) ) ;
#270 = STYLED_ITEM ( 'NONE', ( #77 ), #91 ) ;
#271 = CARTESIAN_POINT ( 'NONE',  ( -80.00000000000001421, 135.0334560443713485, 0.000000000000000000 ) ) ;
#272 = DIRECTION ( 'NONE',  ( 0.7071067811865489050, 0.7071067811865461294, 0.000000000000000000 ) ) ;
#273 = ADVANCED_FACE ( 'NONE', ( #274 ), #60, .F. ) ;
#274 = FACE_OUTER_BOUND ( 'NONE', #161, .T. ) ;
#275 = ORIENTED_EDGE ( 'NONE', *, *, #192, .F. ) ;
#276 =( GEOMETRIC_REPRESENTATION_CONTEXT ( 3 ) GLOBAL_UNCERTAINTY_ASSIGNED_CONTEXT ( ( #98 ) ) GLOBAL_UNIT_ASSIGNED_CONTEXT ( ( #102, #122, #244 ) ) REPRESENTATION_CONTEXT ( 'NONE', 'WORKASPACE' ) );
#277 = AXIS2_PLACEMENT_3D ( 'NONE', #58, #223, #160 ) ;
#278 = DIRECTION ( 'NONE',  ( 0.7071067811865489050, 0.7071067811865462405, 0.000000000000000000 ) ) ;
#279 = CARTESIAN_POINT ( 'NONE',  ( -96.00000000000002842, 141.6608730423408815, 0.000000000000000000 ) ) ;
#280 = ORIENTED_EDGE ( 'NONE', *, *, #33, .F. ) ;
#281 = CARTESIAN_POINT ( 'NONE',  ( 80.00000000000000000, 3.870897938057582616E-29, 9.797174393178826052E-15 ) ) ;
#282 = EDGE_LOOP ( 'NONE', ( #219, #68 ) ) ;
#283 = EDGE_LOOP ( 'NONE', ( #253, #226 ) ) ;
#284 = CARTESIAN_POINT ( 'NONE',  ( 0.000000000000000000, 0.000000000000000000, 0.000000000000000000 ) ) ;
#285 =( BOUNDED_CURVE ( )  B_SPLINE_CURVE ( 3, ( #291, #186, #206, #271 ),
 .UNSPECIFIED., .F., .F. ) 
 B_SPLINE_CURVE_WITH_KNOTS ( ( 4, 4 ),
 ( 3.141592653589793116, 6.283185307179586232 ),
 .UNSPECIFIED. ) 
 CURVE ( )  GEOMETRIC_REPRESENTATION_ITEM ( )  RATIONAL_B_SPLINE_CURVE ( ( 1.000000000000000000, 0.3333333333333333703, 0.3333333333333333703, 1.000000000000000000 ) ) 
 REPRESENTATION_ITEM ( '' )  );
#286 = CARTESIAN_POINT ( 'NONE',  ( 72.22137795156794482, 174.1177490060913158, 0.000000000000000000 ) ) ;
#287 = CIRCLE ( 'NONE', #199, 80.00000000000000000 ) ;
#288 = CARTESIAN_POINT ( 'NONE',  ( 80.00000000000000000, 0.000000000000000000, 9.797174393178826052E-15 ) ) ;
#289 = ADVANCED_FACE ( 'NONE', ( #111 ), #208, .T. ) ;
#290 = SURFACE_SIDE_STYLE ('',( #127 ) ) ;
#291 = CARTESIAN_POINT ( 'NONE',  ( 80.00000000000000000, 68.75928606467593340, 9.797174393178826052E-15 ) ) ;
#292 = AXIS2_PLACEMENT_3D ( 'NONE', #32, #124, #99 ) ;
#293 = VECTOR ( 'NONE', #17, 1000.000000000000000 ) ;
#294 = VERTEX_POINT ( 'NONE', #279 ) ;
#295 = CYLINDRICAL_SURFACE ( 'NONE', #198, 96.00000000000001421 ) ;
#296 = DIRECTION ( 'NONE',  ( 0.7071067811865489050, 0.7071067811865461294, 0.000000000000000000 ) ) ;
#297 = EDGE_CURVE ( 'NONE', #248, #255, #144, .T. ) ;
#298 = CARTESIAN_POINT ( 'NONE',  ( -80.00000000000000000, 0.000000000000000000, 0.000000000000000000 ) ) ;
#299 = CARTESIAN_POINT ( 'NONE',  ( 72.22137795156794482, 174.1177490060913158, 0.000000000000000000 ) ) ;
ENDSEC;
END-ISO-10303-21;
